ISO-10303-21;
HEADER;
FILE_DESCRIPTION (( 'STEP AP203' ),
    '1' );
FILE_NAME ('BK7-BSC-25.4-900-1200.STEP',
    '2020-12-22T03:18:54',
    ( '' ),
    ( '' ),
    'SwSTEP 2.0',
    'SolidWorks 2020',
    '' );
FILE_SCHEMA (( 'CONFIG_CONTROL_DESIGN' ));
ENDSEC;

DATA;
#1 = DIRECTION ( 'NONE',  ( 0.000000000000000000, 1.000000000000000000, 0.000000000000000000 ) ) ;
#2 = ORIENTED_EDGE ( 'NONE', *, *, #313, .T. ) ;
#3 = VECTOR ( 'NONE', #125, 999.9999999999998863 ) ;
#4 = PLANE ( 'NONE',  #122 ) ;
#5 = ADVANCED_FACE ( 'NONE', ( #83 ), #204, .T. ) ;
#6 = ORIENTED_EDGE ( 'NONE', *, *, #211, .T. ) ;
#7 = VECTOR ( 'NONE', #39, 1000.000000000000000 ) ;
#8 = CC_DESIGN_APPROVAL ( #305, ( #149 ) ) ;
#9 = PRODUCT_DEFINITION_SHAPE ( 'NONE', 'NONE',  #149 ) ;
#10 = EDGE_CURVE ( 'NONE', #273, #225, #259, .T. ) ;
#11 = CARTESIAN_POINT ( 'NONE',  ( -12.69999999999999751, -12.69999999999999929, 12.69999999999999929 ) ) ;
#12 = CC_DESIGN_DATE_AND_TIME_ASSIGNMENT ( #249, #22, ( #25 ) ) ;
#13 = CARTESIAN_POINT ( 'NONE',  ( 12.69999999999999929, -12.69999999999999929, 12.69999999999999929 ) ) ;
#14 = DIRECTION ( 'NONE',  ( 1.000000000000000000, 0.000000000000000000, 0.000000000000000000 ) ) ;
#15 = ORIENTED_EDGE ( 'NONE', *, *, #108, .T. ) ;
#16 = CARTESIAN_POINT ( 'NONE',  ( 12.69999999999999574, 12.69999999999999574, -12.69999999999999929 ) ) ;
#17 = VERTEX_POINT ( 'NONE', #302 ) ;
#18 = APPROVAL_PERSON_ORGANIZATION ( #192, #118, #297 ) ;
#19 = APPLICATION_PROTOCOL_DEFINITION ( 'international standard', 'config_control_design', 1994, #190 ) ;
#20 = PLANE ( 'NONE',  #161 ) ;
#21 = ORIENTED_EDGE ( 'NONE', *, *, #313, .F. ) ;
#22 = DATE_TIME_ROLE ( 'classification_date' ) ;
#23 = DIRECTION ( 'NONE',  ( 0.000000000000000000, 0.000000000000000000, -1.000000000000000000 ) ) ;
#24 = PERSON_AND_ORGANIZATION ( #173, #261 ) ;
#25 = SECURITY_CLASSIFICATION ( '', '', #96 ) ;
#26 =( NAMED_UNIT ( * ) PLANE_ANGLE_UNIT ( ) SI_UNIT ( $, .RADIAN. ) );
#27 = ADVANCED_FACE ( 'NONE', ( #255 ), #202, .F. ) ;
#28 = ORIENTED_EDGE ( 'NONE', *, *, #295, .F. ) ;
#29 = VECTOR ( 'NONE', #299, 1000.000000000000114 ) ;
#30 = VERTEX_POINT ( 'NONE', #80 ) ;
#31 = VECTOR ( 'NONE', #107, 1000.000000000000000 ) ;
#32 = EDGE_LOOP ( 'NONE', ( #82, #28, #215, #143 ) ) ;
#33 = EDGE_LOOP ( 'NONE', ( #175, #66, #58, #128 ) ) ;
#34 = CC_DESIGN_APPROVAL ( #40, ( #188 ) ) ;
#35 = LINE ( 'NONE', #88, #7 ) ;
#36 = EDGE_CURVE ( 'NONE', #225, #17, #171, .T. ) ;
#37 = CARTESIAN_POINT ( 'NONE',  ( 12.69999999999999929, 12.69999999999999929, 12.69999999999999929 ) ) ;
#38 = ADVANCED_FACE ( 'NONE', ( #228 ), #4, .F. ) ;
#39 = DIRECTION ( 'NONE',  ( -0.000000000000000000, 1.000000000000000000, -0.000000000000000000 ) ) ;
#40 = APPROVAL ( #298, 'UNSPECIFIED' ) ;
#41 = LINE ( 'NONE', #179, #162 ) ;
#42 = VERTEX_POINT ( 'NONE', #229 ) ;
#43 = CARTESIAN_POINT ( 'NONE',  ( -12.69999999999999574, -12.69999999999999396, 12.69999999999999929 ) ) ;
#44 = ORIENTED_EDGE ( 'NONE', *, *, #129, .T. ) ;
#45 = PERSON_AND_ORGANIZATION_ROLE ( 'creator' ) ;
#46 = ORIENTED_EDGE ( 'NONE', *, *, #174, .F. ) ;
#47 = CALENDAR_DATE ( 2020, 22, 12 ) ;
#48 = DATE_AND_TIME ( #47, #286 ) ;
#49 = APPROVAL_STATUS ( 'not_yet_approved' ) ;
#50 = CARTESIAN_POINT ( 'NONE',  ( -12.69999999999999751, -12.69999999999999929, 12.69999999999999929 ) ) ;
#51 = VECTOR ( 'NONE', #132, 1000.000000000000000 ) ;
#52 = APPROVAL_PERSON_ORGANIZATION ( #134, #40, #200 ) ;
#53 = DIRECTION ( 'NONE',  ( 0.000000000000000000, 0.000000000000000000, 1.000000000000000000 ) ) ;
#54 = APPLICATION_CONTEXT ( 'configuration controlled 3d designs of mechanical parts and assemblies' ) ;
#55 = ORIENTED_EDGE ( 'NONE', *, *, #211, .F. ) ;
#56 = ORIENTED_EDGE ( 'NONE', *, *, #258, .F. ) ;
#57 = CARTESIAN_POINT ( 'NONE',  ( 12.69999999999999574, 12.69999999999999574, -12.69999999999999929 ) ) ;
#58 = ORIENTED_EDGE ( 'NONE', *, *, #277, .F. ) ;
#59 = EDGE_CURVE ( 'NONE', #30, #42, #35, .T. ) ;
#60 = LOCAL_TIME ( 11, 18, 54.00000000000000000, #246 ) ;
#61 = FACE_OUTER_BOUND ( 'NONE', #203, .T. ) ;
#62 = DIRECTION ( 'NONE',  ( -0.7071067811865475727, -0.7071067811865475727, 0.000000000000000000 ) ) ;
#63 = MANIFOLD_SOLID_BREP ( '¾µÏ', #241 ) ;
#64 = ORIENTED_EDGE ( 'NONE', *, *, #258, .T. ) ;
#65 = PLANE ( 'NONE',  #260 ) ;
#66 = ORIENTED_EDGE ( 'NONE', *, *, #126, .F. ) ;
#67 = DIRECTION ( 'NONE',  ( 1.000000000000000000, 0.000000000000000000, 0.000000000000000000 ) ) ;
#68 = ORIENTED_EDGE ( 'NONE', *, *, #264, .T. ) ;
#69 = CC_DESIGN_PERSON_AND_ORGANIZATION_ASSIGNMENT ( #75, #224, ( #188 ) ) ;
#70 = VECTOR ( 'NONE', #217, 1000.000000000000000 ) ;
#71 = VECTOR ( 'NONE', #116, 1000.000000000000000 ) ;
#72 = LINE ( 'NONE', #97, #71 ) ;
#73 = APPROVAL_DATE_TIME ( #278, #40 ) ;
#74 = CARTESIAN_POINT ( 'NONE',  ( -12.70000000000000284, 12.70000000000000284, 12.69999999999999929 ) ) ;
#75 = PERSON_AND_ORGANIZATION ( #173, #261 ) ;
#76 = CARTESIAN_POINT ( 'NONE',  ( -12.69999999999999574, -12.69999999999999396, 12.69999999999999929 ) ) ;
#77 = EDGE_CURVE ( 'NONE', #205, #114, #131, .T. ) ;
#78 = DATE_AND_TIME ( #163, #142 ) ;
#79 = AXIS2_PLACEMENT_3D ( 'NONE', #37, #312, #90 ) ;
#80 = CARTESIAN_POINT ( 'NONE',  ( 12.69999999999999929, -12.69999999999999929, -12.69999999999999929 ) ) ;
#81 = CARTESIAN_POINT ( 'NONE',  ( 12.69999999999999929, 12.69999999999999929, 12.69999999999999929 ) ) ;
#82 = ORIENTED_EDGE ( 'NONE', *, *, #36, .F. ) ;
#83 = FACE_OUTER_BOUND ( 'NONE', #105, .T. ) ;
#84 = DIRECTION ( 'NONE',  ( 0.000000000000000000, 0.000000000000000000, 1.000000000000000000 ) ) ;
#85 = CARTESIAN_POINT ( 'NONE',  ( 12.69999999999999929, -12.69999999999999929, 12.69999999999999929 ) ) ;
#86 = VECTOR ( 'NONE', #159, 1000.000000000000114 ) ;
#87 = VECTOR ( 'NONE', #144, 1000.000000000000000 ) ;
#88 = CARTESIAN_POINT ( 'NONE',  ( 12.69999999999999929, 12.69999999999999929, -12.69999999999999929 ) ) ;
#89 = ADVANCED_FACE ( 'NONE', ( #109 ), #288, .F. ) ;
#90 = DIRECTION ( 'NONE',  ( 0.7071067811865474617, 0.7071067811865474617, 0.000000000000000000 ) ) ;
#91 = LINE ( 'NONE', #262, #51 ) ;
#92 = PLANE ( 'NONE',  #206 ) ;
#93 = EDGE_LOOP ( 'NONE', ( #104, #292, #230, #2 ) ) ;
#94 = LINE ( 'NONE', #317, #86 ) ;
#95 = EDGE_LOOP ( 'NONE', ( #304, #194, #46 ) ) ;
#96 = SECURITY_CLASSIFICATION_LEVEL ( 'unclassified' ) ;
#97 = CARTESIAN_POINT ( 'NONE',  ( -12.69999999999999574, -12.69999999999999396, 12.69999999999999929 ) ) ;
#98 = ADVANCED_FACE ( 'NONE', ( #210 ), #238, .F. ) ;
#99 = DATE_TIME_ROLE ( 'creation_date' ) ;
#100 = CARTESIAN_POINT ( 'NONE',  ( -12.69999999999999574, -12.69999999999999396, 12.69999999999999929 ) ) ;
#101 = ORIENTED_EDGE ( 'NONE', *, *, #277, .T. ) ;
#102 = CC_DESIGN_PERSON_AND_ORGANIZATION_ASSIGNMENT ( #300, #280, ( #149 ) ) ;
#103 = DIRECTION ( 'NONE',  ( 0.000000000000000000, 0.000000000000000000, 1.000000000000000000 ) ) ;
#104 = ORIENTED_EDGE ( 'NONE', *, *, #180, .T. ) ;
#105 = EDGE_LOOP ( 'NONE', ( #64, #155, #101 ) ) ;
#106 = PRODUCT ( 'BK7-BSC-25.4-900-1200', 'BK7-BSC-25.4-900-1200', '', ( #121 ) ) ;
#107 = DIRECTION ( 'NONE',  ( -0.000000000000000000, -0.000000000000000000, -1.000000000000000000 ) ) ;
#108 = EDGE_CURVE ( 'NONE', #239, #170, #233, .T. ) ;
#109 = FACE_OUTER_BOUND ( 'NONE', #237, .T. ) ;
#110 = CARTESIAN_POINT ( 'NONE',  ( 12.69999999999999574, 12.69999999999999574, -12.69999999999999929 ) ) ;
#111 = ORIENTED_EDGE ( 'NONE', *, *, #221, .F. ) ;
#112 = CARTESIAN_POINT ( 'NONE',  ( -12.69999999999999751, -12.69999999999999929, 12.69999999999999929 ) ) ;
#113 = LINE ( 'NONE', #16, #70 ) ;
#114 = VERTEX_POINT ( 'NONE', #85 ) ;
#115 = PERSON_AND_ORGANIZATION_ROLE ( 'design_owner' ) ;
#116 = DIRECTION ( 'NONE',  ( -2.220446049250312588E-16, 1.000000000000000000, 0.000000000000000000 ) ) ;
#117 = LOCAL_TIME ( 11, 18, 54.00000000000000000, #242 ) ;
#118 = APPROVAL ( #275, 'UNSPECIFIED' ) ;
#119 = CALENDAR_DATE ( 2020, 22, 12 ) ;
#120 =( NAMED_UNIT ( * ) SI_UNIT ( $, .STERADIAN. ) SOLID_ANGLE_UNIT ( ) );
#121 = MECHANICAL_CONTEXT ( 'NONE', #54, 'mechanical' ) ;
#122 = AXIS2_PLACEMENT_3D ( 'NONE', #307, #172, #283 ) ;
#123 = CC_DESIGN_PERSON_AND_ORGANIZATION_ASSIGNMENT ( #270, #115, ( #106 ) ) ;
#124 = CARTESIAN_POINT ( 'NONE',  ( -12.69999999999999574, -12.69999999999999396, -12.69999999999999929 ) ) ;
#125 = DIRECTION ( 'NONE',  ( -0.7071067811865475727, -0.7071067811865475727, 0.000000000000000000 ) ) ;
#126 = EDGE_CURVE ( 'NONE', #248, #42, #41, .T. ) ;
#127 = UNCERTAINTY_MEASURE_WITH_UNIT (LENGTH_MEASURE( 1.000000000000000082E-05 ), #306, 'distance_accuracy_value', 'NONE');
#128 = ORIENTED_EDGE ( 'NONE', *, *, #152, .T. ) ;
#129 = EDGE_CURVE ( 'NONE', #186, #239, #91, .T. ) ;
#130 = VERTEX_POINT ( 'NONE', #287 ) ;
#131 = LINE ( 'NONE', #11, #309 ) ;
#132 = DIRECTION ( 'NONE',  ( 1.000000000000000000, -2.220446049250312588E-16, 0.000000000000000000 ) ) ;
#133 = ORIENTED_EDGE ( 'NONE', *, *, #10, .T. ) ;
#134 = PERSON_AND_ORGANIZATION ( #173, #261 ) ;
#135 = LINE ( 'NONE', #157, #181 ) ;
#136 = CC_DESIGN_SECURITY_CLASSIFICATION ( #25, ( #188 ) ) ;
#137 = CARTESIAN_POINT ( 'NONE',  ( 12.69999999999999929, 12.69999999999999929, 12.69999999999999929 ) ) ;
#138 = APPROVAL_DATE_TIME ( #48, #118 ) ;
#139 = ADVANCED_FACE ( 'NONE', ( #61 ), #185, .F. ) ;
#140 = PERSON_AND_ORGANIZATION ( #173, #261 ) ;
#141 = CARTESIAN_POINT ( 'NONE',  ( 0.000000000000000000, 0.000000000000000000, 12.69999999999999929 ) ) ;
#142 = LOCAL_TIME ( 11, 18, 54.00000000000000000, #196 ) ;
#143 = ORIENTED_EDGE ( 'NONE', *, *, #221, .T. ) ;
#144 = DIRECTION ( 'NONE',  ( -2.220446049250312588E-16, 1.000000000000000000, 0.000000000000000000 ) ) ;
#145 = AXIS2_PLACEMENT_3D ( 'NONE', #212, #266, #84 ) ;
#146 = ADVANCED_FACE ( 'NONE', ( #234 ), #65, .F. ) ;
#147 = DIRECTION ( 'NONE',  ( 0.000000000000000000, 0.000000000000000000, 1.000000000000000000 ) ) ;
#148 = DIRECTION ( 'NONE',  ( -1.000000000000000000, 0.000000000000000000, 0.000000000000000000 ) ) ;
#149 = PRODUCT_DEFINITION ( 'UNKNOWN', '', #188, #213 ) ;
#150 = DIRECTION ( 'NONE',  ( 1.000000000000000000, 0.000000000000000000, 0.000000000000000000 ) ) ;
#151 = LOCAL_TIME ( 11, 18, 54.00000000000000000, #218 ) ;
#152 = EDGE_CURVE ( 'NONE', #114, #30, #235, .T. ) ;
#153 = CARTESIAN_POINT ( 'NONE',  ( -12.69999999999999751, -12.69999999999999929, 12.69999999999999929 ) ) ;
#154 = ADVANCED_FACE ( 'NONE', ( #291 ), #184, .F. ) ;
#155 = ORIENTED_EDGE ( 'NONE', *, *, #77, .T. ) ;
#156 = DIRECTION ( 'NONE',  ( -0.000000000000000000, -0.000000000000000000, -1.000000000000000000 ) ) ;
#157 = CARTESIAN_POINT ( 'NONE',  ( 12.69999999999999574, 12.69999999999999574, 12.69999999999999929 ) ) ;
#158 = CALENDAR_DATE ( 2020, 22, 12 ) ;
#159 = DIRECTION ( 'NONE',  ( -0.7071067811865474617, -0.7071067811865474617, 0.000000000000000000 ) ) ;
#160 = ORIENTED_EDGE ( 'NONE', *, *, #126, .T. ) ;
#161 = AXIS2_PLACEMENT_3D ( 'NONE', #141, #103, #219 ) ;
#162 = VECTOR ( 'NONE', #156, 1000.000000000000000 ) ;
#163 = CALENDAR_DATE ( 2020, 22, 12 ) ;
#164 = VECTOR ( 'NONE', #318, 1000.000000000000000 ) ;
#165 = LINE ( 'NONE', #199, #29 ) ;
#166 = EDGE_LOOP ( 'NONE', ( #55, #267, #316 ) ) ;
#167 = PERSON_AND_ORGANIZATION_ROLE ( 'classification_officer' ) ;
#168 = MANIFOLD_SOLID_BREP ( 'Í¹Ì¨-À', #284 ) ;
#169 = LINE ( 'NONE', #74, #208 ) ;
#170 = VERTEX_POINT ( 'NONE', #76 ) ;
#171 = LINE ( 'NONE', #124, #87 ) ;
#172 = DIRECTION ( 'NONE',  ( 0.000000000000000000, 0.000000000000000000, 1.000000000000000000 ) ) ;
#173 = PERSON ( 'UNSPECIFIED', 'UNSPECIFIED', 'UNSPECIFIED', ('UNSPECIFIED'), ('UNSPECIFIED'), ('UNSPECIFIED') ) ;
#174 = EDGE_CURVE ( 'NONE', #170, #186, #72, .T. ) ;
#175 = ORIENTED_EDGE ( 'NONE', *, *, #59, .T. ) ;
#176 = AXIS2_PLACEMENT_3D ( 'NONE', #227, #53, #303 ) ;
#177 = ORIENTED_EDGE ( 'NONE', *, *, #264, .F. ) ;
#178 = DIRECTION ( 'NONE',  ( -0.7071067811865475727, 0.7071067811865475727, 0.000000000000000000 ) ) ;
#179 = CARTESIAN_POINT ( 'NONE',  ( 12.69999999999999929, 12.69999999999999929, 12.69999999999999929 ) ) ;
#180 = EDGE_CURVE ( 'NONE', #130, #30, #271, .T. ) ;
#181 = VECTOR ( 'NONE', #268, 1000.000000000000000 ) ;
#182 = CARTESIAN_POINT ( 'NONE',  ( 12.69999999999999574, 12.69999999999999574, 12.69999999999999929 ) ) ;
#183 = PRODUCT_RELATED_PRODUCT_CATEGORY ( 'detail', '', ( #106 ) ) ;
#184 = PLANE ( 'NONE',  #209 ) ;
#185 = PLANE ( 'NONE',  #79 ) ;
#186 = VERTEX_POINT ( 'NONE', #250 ) ;
#187 = AXIS2_PLACEMENT_3D ( 'NONE', #182, #178, #314 ) ;
#188 = PRODUCT_DEFINITION_FORMATION_WITH_SPECIFIED_SOURCE ( 'ANY', '', #106, .NOT_KNOWN. ) ;
#189 = DIRECTION ( 'NONE',  ( -0.000000000000000000, -0.000000000000000000, -1.000000000000000000 ) ) ;
#190 = APPLICATION_CONTEXT ( 'configuration controlled 3d designs of mechanical parts and assemblies' ) ;
#191 = FACE_OUTER_BOUND ( 'NONE', #95, .T. ) ;
#192 = PERSON_AND_ORGANIZATION ( #173, #261 ) ;
#193 = CARTESIAN_POINT ( 'NONE',  ( -12.69999999999999574, -12.69999999999999396, -12.69999999999999929 ) ) ;
#194 = ORIENTED_EDGE ( 'NONE', *, *, #129, .F. ) ;
#195 = CC_DESIGN_PERSON_AND_ORGANIZATION_ASSIGNMENT ( #140, #167, ( #25 ) ) ;
#196 = COORDINATED_UNIVERSAL_TIME_OFFSET ( 8, 0, .AHEAD. ) ;
#197 = DIRECTION ( 'NONE',  ( 0.000000000000000000, 0.000000000000000000, 1.000000000000000000 ) ) ;
#198 = APPROVAL_DATE_TIME ( #78, #305 ) ;
#199 = CARTESIAN_POINT ( 'NONE',  ( 12.69999999999999929, 12.69999999999999929, 12.69999999999999929 ) ) ;
#200 = APPROVAL_ROLE ( '' ) ;
#201 = CARTESIAN_POINT ( 'NONE',  ( 0.000000000000000000, 0.000000000000000000, 12.69999999999999929 ) ) ;
#202 = PLANE ( 'NONE',  #251 ) ;
#203 = EDGE_LOOP ( 'NONE', ( #6, #21, #56, #160 ) ) ;
#204 = PLANE ( 'NONE',  #290 ) ;
#205 = VERTEX_POINT ( 'NONE', #50 ) ;
#206 = AXIS2_PLACEMENT_3D ( 'NONE', #100, #276, #197 ) ;
#207 = CARTESIAN_POINT ( 'NONE',  ( 12.69999999999999574, 12.69999999999999574, 12.69999999999999929 ) ) ;
#208 = VECTOR ( 'NONE', #23, 1000.000000000000000 ) ;
#209 = AXIS2_PLACEMENT_3D ( 'NONE', #153, #1, #294 ) ;
#210 = FACE_OUTER_BOUND ( 'NONE', #265, .T. ) ;
#211 = EDGE_CURVE ( 'NONE', #42, #130, #94, .T. ) ;
#212 = CARTESIAN_POINT ( 'NONE',  ( 12.69999999999999574, 12.69999999999999574, 12.69999999999999929 ) ) ;
#213 = DESIGN_CONTEXT ( 'detailed design', #190, 'design' ) ;
#214 = DIRECTION ( 'NONE',  ( -0.000000000000000000, 1.000000000000000000, -0.000000000000000000 ) ) ;
#215 = ORIENTED_EDGE ( 'NONE', *, *, #174, .T. ) ;
#216 = CALENDAR_DATE ( 2020, 22, 12 ) ;
#217 = DIRECTION ( 'NONE',  ( 1.000000000000000000, -2.220446049250312588E-16, 0.000000000000000000 ) ) ;
#218 = COORDINATED_UNIVERSAL_TIME_OFFSET ( 8, 0, .AHEAD. ) ;
#219 = DIRECTION ( 'NONE',  ( -2.220446049250312588E-16, 1.000000000000000000, 0.000000000000000000 ) ) ;
#220 = ORIENTED_EDGE ( 'NONE', *, *, #285, .F. ) ;
#221 = EDGE_CURVE ( 'NONE', #186, #17, #169, .T. ) ;
#222 = APPROVAL_PERSON_ORGANIZATION ( #301, #305, #296 ) ;
#223 = CARTESIAN_POINT ( 'NONE',  ( 12.69999999999999929, 12.69999999999999929, 12.69999999999999929 ) ) ;
#224 = PERSON_AND_ORGANIZATION_ROLE ( 'design_supplier' ) ;
#225 = VERTEX_POINT ( 'NONE', #193 ) ;
#226 = VECTOR ( 'NONE', #67, 1000.000000000000000 ) ;
#227 = CARTESIAN_POINT ( 'NONE',  ( 0.000000000000000000, 0.000000000000000000, 0.000000000000000000 ) ) ;
#228 = FACE_OUTER_BOUND ( 'NONE', #321, .T. ) ;
#229 = CARTESIAN_POINT ( 'NONE',  ( 12.69999999999999929, 12.69999999999999929, -12.69999999999999929 ) ) ;
#230 = ORIENTED_EDGE ( 'NONE', *, *, #77, .F. ) ;
#231 = VECTOR ( 'NONE', #62, 999.9999999999998863 ) ;
#232 = ORIENTED_EDGE ( 'NONE', *, *, #295, .T. ) ;
#233 = LINE ( 'NONE', #207, #231 ) ;
#234 = FACE_OUTER_BOUND ( 'NONE', #166, .T. ) ;
#235 = LINE ( 'NONE', #13, #31 ) ;
#236 = ADVANCED_BREP_SHAPE_REPRESENTATION ( 'BK7-BSC-25.4-900-1200', ( #168, #63, #176 ), #252 ) ;
#237 = EDGE_LOOP ( 'NONE', ( #177, #111, #44, #308 ) ) ;
#238 = PLANE ( 'NONE',  #187 ) ;
#239 = VERTEX_POINT ( 'NONE', #244 ) ;
#240 = LINE ( 'NONE', #112, #253 ) ;
#241 = CLOSED_SHELL ( 'NONE', ( #98, #311, #89, #257, #38 ) ) ;
#242 = COORDINATED_UNIVERSAL_TIME_OFFSET ( 8, 0, .AHEAD. ) ;
#243 = CC_DESIGN_PERSON_AND_ORGANIZATION_ASSIGNMENT ( #24, #45, ( #188 ) ) ;
#244 = CARTESIAN_POINT ( 'NONE',  ( 12.69999999999999574, 12.69999999999999574, 12.69999999999999929 ) ) ;
#245 = ORIENTED_EDGE ( 'NONE', *, *, #10, .F. ) ;
#246 = COORDINATED_UNIVERSAL_TIME_OFFSET ( 8, 0, .AHEAD. ) ;
#247 = FACE_OUTER_BOUND ( 'NONE', #32, .T. ) ;
#248 = VERTEX_POINT ( 'NONE', #223 ) ;
#249 = DATE_AND_TIME ( #119, #117 ) ;
#250 = CARTESIAN_POINT ( 'NONE',  ( -12.70000000000000284, 12.70000000000000284, 12.69999999999999929 ) ) ;
#251 = AXIS2_PLACEMENT_3D ( 'NONE', #81, #148, #147 ) ;
#252 =( GEOMETRIC_REPRESENTATION_CONTEXT ( 3 ) GLOBAL_UNCERTAINTY_ASSIGNED_CONTEXT ( ( #127 ) ) GLOBAL_UNIT_ASSIGNED_CONTEXT ( ( #306, #26, #120 ) ) REPRESENTATION_CONTEXT ( 'NONE', 'WORKASPACE' ) );
#253 = VECTOR ( 'NONE', #189, 1000.000000000000000 ) ;
#254 = APPLICATION_PROTOCOL_DEFINITION ( 'international standard', 'config_control_design', 1994, #54 ) ;
#255 = FACE_OUTER_BOUND ( 'NONE', #33, .T. ) ;
#256 = ORIENTED_EDGE ( 'NONE', *, *, #36, .T. ) ;
#257 = ADVANCED_FACE ( 'NONE', ( #191 ), #20, .T. ) ;
#258 = EDGE_CURVE ( 'NONE', #248, #205, #165, .T. ) ;
#259 = LINE ( 'NONE', #57, #3 ) ;
#260 = AXIS2_PLACEMENT_3D ( 'NONE', #289, #310, #263 ) ;
#261 = ORGANIZATION ( 'UNSPECIFIED', 'UNSPECIFIED', '' ) ;
#262 = CARTESIAN_POINT ( 'NONE',  ( 12.69999999999999574, 12.69999999999999574, 12.69999999999999929 ) ) ;
#263 = DIRECTION ( 'NONE',  ( 1.000000000000000000, 0.000000000000000000, 0.000000000000000000 ) ) ;
#264 = EDGE_CURVE ( 'NONE', #17, #273, #113, .T. ) ;
#265 = EDGE_LOOP ( 'NONE', ( #245, #220, #15, #232 ) ) ;
#266 = DIRECTION ( 'NONE',  ( 2.220446049250312588E-16, -1.000000000000000000, 0.000000000000000000 ) ) ;
#267 = ORIENTED_EDGE ( 'NONE', *, *, #59, .F. ) ;
#268 = DIRECTION ( 'NONE',  ( 0.000000000000000000, 0.000000000000000000, -1.000000000000000000 ) ) ;
#269 = CC_DESIGN_DATE_AND_TIME_ASSIGNMENT ( #319, #99, ( #149 ) ) ;
#270 = PERSON_AND_ORGANIZATION ( #173, #261 ) ;
#271 = LINE ( 'NONE', #279, #226 ) ;
#272 = VECTOR ( 'NONE', #214, 1000.000000000000000 ) ;
#273 = VERTEX_POINT ( 'NONE', #110 ) ;
#274 = COORDINATED_UNIVERSAL_TIME_OFFSET ( 8, 0, .AHEAD. ) ;
#275 = APPROVAL_STATUS ( 'not_yet_approved' ) ;
#276 = DIRECTION ( 'NONE',  ( 1.000000000000000000, -2.220446049250312588E-16, 0.000000000000000000 ) ) ;
#277 = EDGE_CURVE ( 'NONE', #114, #248, #320, .T. ) ;
#278 = DATE_AND_TIME ( #158, #60 ) ;
#279 = CARTESIAN_POINT ( 'NONE',  ( -12.69999999999999751, -12.69999999999999929, -12.69999999999999929 ) ) ;
#280 = PERSON_AND_ORGANIZATION_ROLE ( 'creator' ) ;
#281 = DIRECTION ( 'NONE',  ( -0.000000000000000000, 0.000000000000000000, 1.000000000000000000 ) ) ;
#282 = SHAPE_DEFINITION_REPRESENTATION ( #9, #236 ) ;
#283 = DIRECTION ( 'NONE',  ( -2.220446049250312588E-16, 1.000000000000000000, 0.000000000000000000 ) ) ;
#284 = CLOSED_SHELL ( 'NONE', ( #139, #154, #27, #5, #146 ) ) ;
#285 = EDGE_CURVE ( 'NONE', #239, #273, #135, .T. ) ;
#286 = LOCAL_TIME ( 11, 18, 54.00000000000000000, #274 ) ;
#287 = CARTESIAN_POINT ( 'NONE',  ( -12.69999999999999751, -12.69999999999999929, -12.69999999999999929 ) ) ;
#288 = PLANE ( 'NONE',  #145 ) ;
#289 = CARTESIAN_POINT ( 'NONE',  ( 0.000000000000000000, 0.000000000000000000, -12.69999999999999929 ) ) ;
#290 = AXIS2_PLACEMENT_3D ( 'NONE', #201, #281, #150 ) ;
#291 = FACE_OUTER_BOUND ( 'NONE', #93, .T. ) ;
#292 = ORIENTED_EDGE ( 'NONE', *, *, #152, .F. ) ;
#293 = CC_DESIGN_APPROVAL ( #118, ( #25 ) ) ;
#294 = DIRECTION ( 'NONE',  ( 0.000000000000000000, -0.000000000000000000, 1.000000000000000000 ) ) ;
#295 = EDGE_CURVE ( 'NONE', #170, #225, #315, .T. ) ;
#296 = APPROVAL_ROLE ( '' ) ;
#297 = APPROVAL_ROLE ( '' ) ;
#298 = APPROVAL_STATUS ( 'not_yet_approved' ) ;
#299 = DIRECTION ( 'NONE',  ( -0.7071067811865474617, -0.7071067811865474617, 0.000000000000000000 ) ) ;
#300 = PERSON_AND_ORGANIZATION ( #173, #261 ) ;
#301 = PERSON_AND_ORGANIZATION ( #173, #261 ) ;
#302 = CARTESIAN_POINT ( 'NONE',  ( -12.70000000000000284, 12.70000000000000284, -12.69999999999999929 ) ) ;
#303 = DIRECTION ( 'NONE',  ( 1.000000000000000000, 0.000000000000000000, 0.000000000000000000 ) ) ;
#304 = ORIENTED_EDGE ( 'NONE', *, *, #108, .F. ) ;
#305 = APPROVAL ( #49, 'UNSPECIFIED' ) ;
#306 =( LENGTH_UNIT ( ) NAMED_UNIT ( * ) SI_UNIT ( .MILLI., .METRE. ) );
#307 = CARTESIAN_POINT ( 'NONE',  ( 0.000000000000000000, 0.000000000000000000, -12.69999999999999929 ) ) ;
#308 = ORIENTED_EDGE ( 'NONE', *, *, #285, .T. ) ;
#309 = VECTOR ( 'NONE', #14, 1000.000000000000000 ) ;
#310 = DIRECTION ( 'NONE',  ( -0.000000000000000000, 0.000000000000000000, 1.000000000000000000 ) ) ;
#311 = ADVANCED_FACE ( 'NONE', ( #247 ), #92, .F. ) ;
#312 = DIRECTION ( 'NONE',  ( 0.7071067811865475727, -0.7071067811865475727, 0.000000000000000000 ) ) ;
#313 = EDGE_CURVE ( 'NONE', #205, #130, #240, .T. ) ;
#314 = DIRECTION ( 'NONE',  ( 0.7071067811865475727, 0.7071067811865475727, 0.000000000000000000 ) ) ;
#315 = LINE ( 'NONE', #43, #164 ) ;
#316 = ORIENTED_EDGE ( 'NONE', *, *, #180, .F. ) ;
#317 = CARTESIAN_POINT ( 'NONE',  ( 12.69999999999999929, 12.69999999999999929, -12.69999999999999929 ) ) ;
#318 = DIRECTION ( 'NONE',  ( 0.000000000000000000, 0.000000000000000000, -1.000000000000000000 ) ) ;
#319 = DATE_AND_TIME ( #216, #151 ) ;
#320 = LINE ( 'NONE', #137, #272 ) ;
#321 = EDGE_LOOP ( 'NONE', ( #133, #256, #68 ) ) ;
ENDSEC;
END-ISO-10303-21;
